ISO-10303-21;
HEADER;
/* Generated by software containing ST-Developer
 * from STEP Tools, Inc. (www.steptools.com) 
 */

FILE_DESCRIPTION(
/* description */ (''),
/* implementation_level */ '2;1');

FILE_NAME(
/* name */ 
'D:\\\X2\7384667A79D16280\X0\\\\X2\7384667A987976EE\X0\\\20240807-EM40
D\X2\7CFB5217673A56684FEE6539\X0\\\\X2\9002914D\X0\M26D\X2\7535673A76AE5E268F6E\X0\\\
\X2\30104FDD5BC63011\X0\A02-01-0029-A\X2\76AE5E268F6E\X0\-20240807-\X2\68815BB64FCA\X0\.
stp',
/* time_stamp */ '2024-08-07T11:24:21+08:00',
/* author */ ('13326471722'),
/* organization */ (''),
/* preprocessor_version */ 'ST-DEVELOPER v18.1',
/* originating_system */ 'Autodesk Inventor 2021',
/* authorisation */ '');

FILE_SCHEMA (('AUTOMOTIVE_DESIGN { 1 0 10303 214 3 1 1 }'));
ENDSEC;

DATA;
#10=MECHANICAL_DESIGN_GEOMETRIC_PRESENTATION_REPRESENTATION('',(#13),#400);
#11=SHAPE_REPRESENTATION_RELATIONSHIP('SRR','None',#407,#12);
#12=ADVANCED_BREP_SHAPE_REPRESENTATION('',(#14),#399);
#13=STYLED_ITEM('',(#417),#14);
#14=MANIFOLD_SOLID_BREP('\X2\5B9E4F53\X0\1',#214);
#15=FACE_BOUND('',#48,.T.);
#16=FACE_BOUND('',#49,.T.);
#17=FACE_BOUND('',#50,.T.);
#18=FACE_BOUND('',#52,.T.);
#19=FACE_BOUND('',#53,.T.);
#20=FACE_BOUND('',#54,.T.);
#21=PLANE('',#255);
#22=PLANE('',#257);
#23=TOROIDAL_SURFACE('',#243,8.,1.);
#24=CONICAL_SURFACE('',#240,8.37059047744874,1.30899693899575);
#25=CONICAL_SURFACE('',#247,8.37059047744874,1.30899693899575);
#26=CONICAL_SURFACE('',#251,1.625408813759,0.785398163397448);
#27=CONICAL_SURFACE('',#260,1.625408813759,0.785398163397448);
#28=FACE_OUTER_BOUND('',#40,.T.);
#29=FACE_OUTER_BOUND('',#41,.T.);
#30=FACE_OUTER_BOUND('',#42,.T.);
#31=FACE_OUTER_BOUND('',#43,.T.);
#32=FACE_OUTER_BOUND('',#44,.T.);
#33=FACE_OUTER_BOUND('',#45,.T.);
#34=FACE_OUTER_BOUND('',#46,.T.);
#35=FACE_OUTER_BOUND('',#47,.T.);
#36=FACE_OUTER_BOUND('',#51,.T.);
#37=FACE_OUTER_BOUND('',#55,.T.);
#38=FACE_OUTER_BOUND('',#56,.T.);
#39=FACE_OUTER_BOUND('',#57,.T.);
#40=EDGE_LOOP('',(#141,#142,#143,#144));
#41=EDGE_LOOP('',(#145,#146,#147,#148));
#42=EDGE_LOOP('',(#149,#150,#151,#152,#153));
#43=EDGE_LOOP('',(#154,#155,#156,#157,#158,#159));
#44=EDGE_LOOP('',(#160,#161,#162,#163,#164));
#45=EDGE_LOOP('',(#165,#166,#167,#168));
#46=EDGE_LOOP('',(#169,#170,#171,#172,#173));
#47=EDGE_LOOP('',(#174));
#48=EDGE_LOOP('',(#175));
#49=EDGE_LOOP('',(#176));
#50=EDGE_LOOP('',(#177));
#51=EDGE_LOOP('',(#178));
#52=EDGE_LOOP('',(#179));
#53=EDGE_LOOP('',(#180));
#54=EDGE_LOOP('',(#181));
#55=EDGE_LOOP('',(#182,#183,#184,#185,#186));
#56=EDGE_LOOP('',(#187,#188,#189,#190,#191));
#57=EDGE_LOOP('',(#192,#193,#194,#195,#196));
#58=LINE('',#343,#67);
#59=LINE('',#349,#68);
#60=LINE('',#356,#69);
#61=LINE('',#366,#70);
#62=LINE('',#370,#71);
#63=LINE('',#376,#72);
#64=LINE('',#391,#73);
#65=LINE('',#394,#74);
#66=LINE('',#396,#75);
#67=VECTOR('',#271,1.65);
#68=VECTOR('',#278,9.);
#69=VECTOR('',#287,8.37059047744874);
#70=VECTOR('',#300,8.37059047744874);
#71=VECTOR('',#305,9.);
#72=VECTOR('',#310,1.625408813759);
#73=VECTOR('',#329,1.625408813759);
#74=VECTOR('',#334,1.);
#75=VECTOR('',#337,1.);
#76=CIRCLE('',#235,1.65);
#77=CIRCLE('',#236,1.65);
#78=CIRCLE('',#238,9.);
#79=CIRCLE('',#239,9.);
#80=CIRCLE('',#241,7.74118095489748);
#81=CIRCLE('',#242,7.74118095489748);
#82=CIRCLE('',#244,1.);
#83=CIRCLE('',#245,7.74118095489748);
#84=CIRCLE('',#246,7.74118095489748);
#85=CIRCLE('',#248,9.);
#86=CIRCLE('',#250,9.);
#87=CIRCLE('',#252,1.15);
#88=CIRCLE('',#253,2.25);
#89=CIRCLE('',#254,1.15);
#90=CIRCLE('',#256,2.25);
#91=CIRCLE('',#258,1.15);
#92=CIRCLE('',#259,1.15);
#93=CIRCLE('',#261,1.15);
#94=CIRCLE('',#262,1.15);
#95=VERTEX_POINT('',#340);
#96=VERTEX_POINT('',#342);
#97=VERTEX_POINT('',#346);
#98=VERTEX_POINT('',#348);
#99=VERTEX_POINT('',#352);
#100=VERTEX_POINT('',#353);
#101=VERTEX_POINT('',#358);
#102=VERTEX_POINT('',#360);
#103=VERTEX_POINT('',#364);
#104=VERTEX_POINT('',#368);
#105=VERTEX_POINT('',#372);
#106=VERTEX_POINT('',#373);
#107=VERTEX_POINT('',#375);
#108=VERTEX_POINT('',#380);
#109=VERTEX_POINT('',#383);
#110=VERTEX_POINT('',#385);
#111=VERTEX_POINT('',#388);
#112=VERTEX_POINT('',#389);
#113=EDGE_CURVE('',#95,#95,#76,.T.);
#114=EDGE_CURVE('',#95,#96,#58,.T.);
#115=EDGE_CURVE('',#96,#96,#77,.T.);
#116=EDGE_CURVE('',#97,#97,#78,.T.);
#117=EDGE_CURVE('',#97,#98,#59,.T.);
#118=EDGE_CURVE('',#98,#98,#79,.T.);
#119=EDGE_CURVE('',#99,#100,#80,.T.);
#120=EDGE_CURVE('',#100,#99,#81,.T.);
#121=EDGE_CURVE('',#100,#97,#60,.T.);
#122=EDGE_CURVE('',#99,#101,#82,.T.);
#123=EDGE_CURVE('',#102,#101,#83,.T.);
#124=EDGE_CURVE('',#101,#102,#84,.T.);
#125=EDGE_CURVE('',#103,#103,#85,.T.);
#126=EDGE_CURVE('',#103,#102,#61,.T.);
#127=EDGE_CURVE('',#104,#104,#86,.T.);
#128=EDGE_CURVE('',#104,#103,#62,.T.);
#129=EDGE_CURVE('',#105,#106,#87,.F.);
#130=EDGE_CURVE('',#106,#107,#63,.T.);
#131=EDGE_CURVE('',#107,#107,#88,.T.);
#132=EDGE_CURVE('',#106,#105,#89,.F.);
#133=EDGE_CURVE('',#108,#108,#90,.T.);
#134=EDGE_CURVE('',#109,#109,#91,.F.);
#135=EDGE_CURVE('',#110,#110,#92,.F.);
#136=EDGE_CURVE('',#111,#112,#93,.F.);
#137=EDGE_CURVE('',#112,#108,#64,.T.);
#138=EDGE_CURVE('',#112,#111,#94,.F.);
#139=EDGE_CURVE('',#109,#111,#65,.T.);
#140=EDGE_CURVE('',#110,#105,#66,.T.);
#141=ORIENTED_EDGE('',*,*,#113,.F.);
#142=ORIENTED_EDGE('',*,*,#114,.T.);
#143=ORIENTED_EDGE('',*,*,#115,.F.);
#144=ORIENTED_EDGE('',*,*,#114,.F.);
#145=ORIENTED_EDGE('',*,*,#116,.F.);
#146=ORIENTED_EDGE('',*,*,#117,.T.);
#147=ORIENTED_EDGE('',*,*,#118,.T.);
#148=ORIENTED_EDGE('',*,*,#117,.F.);
#149=ORIENTED_EDGE('',*,*,#119,.F.);
#150=ORIENTED_EDGE('',*,*,#120,.F.);
#151=ORIENTED_EDGE('',*,*,#121,.T.);
#152=ORIENTED_EDGE('',*,*,#116,.T.);
#153=ORIENTED_EDGE('',*,*,#121,.F.);
#154=ORIENTED_EDGE('',*,*,#119,.T.);
#155=ORIENTED_EDGE('',*,*,#120,.T.);
#156=ORIENTED_EDGE('',*,*,#122,.T.);
#157=ORIENTED_EDGE('',*,*,#123,.F.);
#158=ORIENTED_EDGE('',*,*,#124,.F.);
#159=ORIENTED_EDGE('',*,*,#122,.F.);
#160=ORIENTED_EDGE('',*,*,#125,.F.);
#161=ORIENTED_EDGE('',*,*,#126,.T.);
#162=ORIENTED_EDGE('',*,*,#123,.T.);
#163=ORIENTED_EDGE('',*,*,#124,.T.);
#164=ORIENTED_EDGE('',*,*,#126,.F.);
#165=ORIENTED_EDGE('',*,*,#127,.F.);
#166=ORIENTED_EDGE('',*,*,#128,.T.);
#167=ORIENTED_EDGE('',*,*,#125,.T.);
#168=ORIENTED_EDGE('',*,*,#128,.F.);
#169=ORIENTED_EDGE('',*,*,#129,.T.);
#170=ORIENTED_EDGE('',*,*,#130,.T.);
#171=ORIENTED_EDGE('',*,*,#131,.F.);
#172=ORIENTED_EDGE('',*,*,#130,.F.);
#173=ORIENTED_EDGE('',*,*,#132,.T.);
#174=ORIENTED_EDGE('',*,*,#118,.F.);
#175=ORIENTED_EDGE('',*,*,#113,.T.);
#176=ORIENTED_EDGE('',*,*,#131,.T.);
#177=ORIENTED_EDGE('',*,*,#133,.T.);
#178=ORIENTED_EDGE('',*,*,#127,.T.);
#179=ORIENTED_EDGE('',*,*,#115,.T.);
#180=ORIENTED_EDGE('',*,*,#134,.T.);
#181=ORIENTED_EDGE('',*,*,#135,.T.);
#182=ORIENTED_EDGE('',*,*,#136,.T.);
#183=ORIENTED_EDGE('',*,*,#137,.T.);
#184=ORIENTED_EDGE('',*,*,#133,.F.);
#185=ORIENTED_EDGE('',*,*,#137,.F.);
#186=ORIENTED_EDGE('',*,*,#138,.T.);
#187=ORIENTED_EDGE('',*,*,#134,.F.);
#188=ORIENTED_EDGE('',*,*,#139,.T.);
#189=ORIENTED_EDGE('',*,*,#138,.F.);
#190=ORIENTED_EDGE('',*,*,#136,.F.);
#191=ORIENTED_EDGE('',*,*,#139,.F.);
#192=ORIENTED_EDGE('',*,*,#135,.F.);
#193=ORIENTED_EDGE('',*,*,#140,.T.);
#194=ORIENTED_EDGE('',*,*,#132,.F.);
#195=ORIENTED_EDGE('',*,*,#129,.F.);
#196=ORIENTED_EDGE('',*,*,#140,.F.);
#197=CYLINDRICAL_SURFACE('',#234,1.65);
#198=CYLINDRICAL_SURFACE('',#237,9.);
#199=CYLINDRICAL_SURFACE('',#249,9.);
#200=CYLINDRICAL_SURFACE('',#263,1.15);
#201=CYLINDRICAL_SURFACE('',#264,1.15);
#202=ADVANCED_FACE('',(#28),#197,.F.);
#203=ADVANCED_FACE('',(#29),#198,.T.);
#204=ADVANCED_FACE('',(#30),#24,.T.);
#205=ADVANCED_FACE('',(#31),#23,.F.);
#206=ADVANCED_FACE('',(#32),#25,.T.);
#207=ADVANCED_FACE('',(#33),#199,.T.);
#208=ADVANCED_FACE('',(#34),#26,.F.);
#209=ADVANCED_FACE('',(#35,#15,#16,#17),#21,.T.);
#210=ADVANCED_FACE('',(#36,#18,#19,#20),#22,.F.);
#211=ADVANCED_FACE('',(#37),#27,.F.);
#212=ADVANCED_FACE('',(#38),#200,.F.);
#213=ADVANCED_FACE('',(#39),#201,.F.);
#214=CLOSED_SHELL('',(#202,#203,#204,#205,#206,#207,#208,#209,#210,#211,
#212,#213));
#215=DERIVED_UNIT_ELEMENT(#217,1.);
#216=DERIVED_UNIT_ELEMENT(#402,-3.);
#217=(
MASS_UNIT()
NAMED_UNIT(*)
SI_UNIT($,.GRAM.)
);
#218=DERIVED_UNIT((#215,#216));
#219=MEASURE_REPRESENTATION_ITEM('density measure',
POSITIVE_RATIO_MEASURE(1.),#218);
#220=PROPERTY_DEFINITION_REPRESENTATION(#225,#222);
#221=PROPERTY_DEFINITION_REPRESENTATION(#226,#223);
#222=REPRESENTATION('material name',(#224),#399);
#223=REPRESENTATION('density',(#219),#399);
#224=DESCRIPTIVE_REPRESENTATION_ITEM('\X2\5E3889C4\X0\','\X2\5E3889C4\X0\');
#225=PROPERTY_DEFINITION('material property','material name',#409);
#226=PROPERTY_DEFINITION('material property','density of part',#409);
#227=DATE_TIME_ROLE('creation_date');
#228=APPLIED_DATE_AND_TIME_ASSIGNMENT(#229,#227,(#409));
#229=DATE_AND_TIME(#230,#231);
#230=CALENDAR_DATE(2023,22,3);
#231=LOCAL_TIME(10,50,34.,#232);
#232=COORDINATED_UNIVERSAL_TIME_OFFSET(0,0,.BEHIND.);
#233=AXIS2_PLACEMENT_3D('placement',#338,#265,#266);
#234=AXIS2_PLACEMENT_3D('',#339,#267,#268);
#235=AXIS2_PLACEMENT_3D('',#341,#269,#270);
#236=AXIS2_PLACEMENT_3D('',#344,#272,#273);
#237=AXIS2_PLACEMENT_3D('',#345,#274,#275);
#238=AXIS2_PLACEMENT_3D('',#347,#276,#277);
#239=AXIS2_PLACEMENT_3D('',#350,#279,#280);
#240=AXIS2_PLACEMENT_3D('',#351,#281,#282);
#241=AXIS2_PLACEMENT_3D('',#354,#283,#284);
#242=AXIS2_PLACEMENT_3D('',#355,#285,#286);
#243=AXIS2_PLACEMENT_3D('',#357,#288,#289);
#244=AXIS2_PLACEMENT_3D('',#359,#290,#291);
#245=AXIS2_PLACEMENT_3D('',#361,#292,#293);
#246=AXIS2_PLACEMENT_3D('',#362,#294,#295);
#247=AXIS2_PLACEMENT_3D('',#363,#296,#297);
#248=AXIS2_PLACEMENT_3D('',#365,#298,#299);
#249=AXIS2_PLACEMENT_3D('',#367,#301,#302);
#250=AXIS2_PLACEMENT_3D('',#369,#303,#304);
#251=AXIS2_PLACEMENT_3D('',#371,#306,#307);
#252=AXIS2_PLACEMENT_3D('',#374,#308,#309);
#253=AXIS2_PLACEMENT_3D('',#377,#311,#312);
#254=AXIS2_PLACEMENT_3D('',#378,#313,#314);
#255=AXIS2_PLACEMENT_3D('',#379,#315,#316);
#256=AXIS2_PLACEMENT_3D('',#381,#317,#318);
#257=AXIS2_PLACEMENT_3D('',#382,#319,#320);
#258=AXIS2_PLACEMENT_3D('',#384,#321,#322);
#259=AXIS2_PLACEMENT_3D('',#386,#323,#324);
#260=AXIS2_PLACEMENT_3D('',#387,#325,#326);
#261=AXIS2_PLACEMENT_3D('',#390,#327,#328);
#262=AXIS2_PLACEMENT_3D('',#392,#330,#331);
#263=AXIS2_PLACEMENT_3D('',#393,#332,#333);
#264=AXIS2_PLACEMENT_3D('',#395,#335,#336);
#265=DIRECTION('axis',(0.,0.,1.));
#266=DIRECTION('refdir',(1.,0.,0.));
#267=DIRECTION('center_axis',(0.,1.,0.));
#268=DIRECTION('ref_axis',(1.,0.,0.));
#269=DIRECTION('center_axis',(0.,1.,0.));
#270=DIRECTION('ref_axis',(1.,0.,0.));
#271=DIRECTION('',(0.,1.,0.));
#272=DIRECTION('center_axis',(0.,-1.,0.));
#273=DIRECTION('ref_axis',(1.,0.,0.));
#274=DIRECTION('center_axis',(0.,1.,0.));
#275=DIRECTION('ref_axis',(-1.,0.,0.));
#276=DIRECTION('center_axis',(0.,1.,0.));
#277=DIRECTION('ref_axis',(1.,0.,0.));
#278=DIRECTION('',(0.,-1.,0.));
#279=DIRECTION('center_axis',(0.,1.,0.));
#280=DIRECTION('ref_axis',(1.,0.,0.));
#281=DIRECTION('center_axis',(0.,-1.,0.));
#282=DIRECTION('ref_axis',(-1.,0.,0.));
#283=DIRECTION('center_axis',(0.,1.,0.));
#284=DIRECTION('ref_axis',(1.,0.,0.));
#285=DIRECTION('center_axis',(0.,1.,0.));
#286=DIRECTION('ref_axis',(1.,0.,0.));
#287=DIRECTION('',(0.965925826289068,-0.258819045102521,-1.18291797137867E-16));
#288=DIRECTION('center_axis',(0.,1.,0.));
#289=DIRECTION('ref_axis',(0.,0.,1.));
#290=DIRECTION('center_axis',(-1.,0.,0.));
#291=DIRECTION('ref_axis',(0.,0.,-1.));
#292=DIRECTION('center_axis',(0.,1.,0.));
#293=DIRECTION('ref_axis',(1.,0.,0.));
#294=DIRECTION('center_axis',(0.,1.,0.));
#295=DIRECTION('ref_axis',(1.,0.,0.));
#296=DIRECTION('center_axis',(0.,1.,0.));
#297=DIRECTION('ref_axis',(-1.,0.,0.));
#298=DIRECTION('center_axis',(0.,1.,0.));
#299=DIRECTION('ref_axis',(1.,0.,0.));
#300=DIRECTION('',(-0.965925826289068,-0.258819045102521,1.18291797137867E-16));
#301=DIRECTION('center_axis',(0.,1.,0.));
#302=DIRECTION('ref_axis',(-1.,0.,0.));
#303=DIRECTION('center_axis',(0.,1.,0.));
#304=DIRECTION('ref_axis',(1.,0.,0.));
#305=DIRECTION('',(0.,-1.,0.));
#306=DIRECTION('center_axis',(0.,-1.,0.));
#307=DIRECTION('ref_axis',(0.,0.,-1.));
#308=DIRECTION('center_axis',(0.,-1.,0.));
#309=DIRECTION('ref_axis',(1.,0.,0.));
#310=DIRECTION('',(-8.65956056235493E-17,-0.707106781186548,0.707106781186548));
#311=DIRECTION('center_axis',(0.,1.,0.));
#312=DIRECTION('ref_axis',(0.875000000000011,0.,-0.484122918275906));
#313=DIRECTION('center_axis',(0.,-1.,0.));
#314=DIRECTION('ref_axis',(1.,0.,0.));
#315=DIRECTION('center_axis',(0.,-1.,0.));
#316=DIRECTION('ref_axis',(-1.,0.,0.));
#317=DIRECTION('center_axis',(0.,1.,0.));
#318=DIRECTION('ref_axis',(-0.875000000000011,0.,0.484122918275906));
#319=DIRECTION('center_axis',(0.,-1.,0.));
#320=DIRECTION('ref_axis',(-1.,0.,0.));
#321=DIRECTION('center_axis',(0.,1.,0.));
#322=DIRECTION('ref_axis',(1.,0.,0.));
#323=DIRECTION('center_axis',(0.,1.,0.));
#324=DIRECTION('ref_axis',(1.,0.,0.));
#325=DIRECTION('center_axis',(0.,-1.,0.));
#326=DIRECTION('ref_axis',(0.,0.,-1.));
#327=DIRECTION('center_axis',(0.,-1.,0.));
#328=DIRECTION('ref_axis',(1.,0.,0.));
#329=DIRECTION('',(-8.65956056235493E-17,-0.707106781186548,0.707106781186548));
#330=DIRECTION('center_axis',(0.,-1.,0.));
#331=DIRECTION('ref_axis',(1.,0.,0.));
#332=DIRECTION('center_axis',(0.,-1.,0.));
#333=DIRECTION('ref_axis',(1.,0.,0.));
#334=DIRECTION('',(0.,-1.,0.));
#335=DIRECTION('center_axis',(0.,-1.,0.));
#336=DIRECTION('ref_axis',(1.,0.,0.));
#337=DIRECTION('',(0.,-1.,0.));
#338=CARTESIAN_POINT('',(0.,0.,0.));
#339=CARTESIAN_POINT('Origin',(41.5,-1.5,0.));
#340=CARTESIAN_POINT('',(39.85,-1.5,2.02066721859313E-16));
#341=CARTESIAN_POINT('Origin',(41.5,-1.5,0.));
#342=CARTESIAN_POINT('',(39.85,3.,-2.02066721859313E-16));
#343=CARTESIAN_POINT('',(39.85,-1.5,2.02066721859313E-16));
#344=CARTESIAN_POINT('Origin',(41.5,3.,0.));
#345=CARTESIAN_POINT('Origin',(41.5,-1.0266126864206,0.));
#346=CARTESIAN_POINT('',(50.5,-0.553225372841206,-1.10218211923262E-15));
#347=CARTESIAN_POINT('Origin',(41.5,-0.553225372841206,0.));
#348=CARTESIAN_POINT('',(50.5,-1.5,-1.10218211923262E-15));
#349=CARTESIAN_POINT('',(50.5,-1.0266126864206,-1.10218211923262E-15));
#350=CARTESIAN_POINT('Origin',(41.5,-1.5,0.));
#351=CARTESIAN_POINT('Origin',(41.5,-0.384575599565137,0.));
#352=CARTESIAN_POINT('',(41.5,-0.215925826289068,-7.74118095489748));
#353=CARTESIAN_POINT('',(49.2411809548975,-0.215925826289067,-9.48021247803565E-16));
#354=CARTESIAN_POINT('Origin',(41.5,-0.215925826289068,0.));
#355=CARTESIAN_POINT('Origin',(41.5,-0.215925826289068,0.));
#356=CARTESIAN_POINT('',(49.8705904774488,-0.384575599565137,-1.02510168351809E-15));
#357=CARTESIAN_POINT('Origin',(41.5,0.75,0.));
#358=CARTESIAN_POINT('',(41.5,1.71592582628907,-7.74118095489748));
#359=CARTESIAN_POINT('Origin',(41.5,0.75,-8.));
#360=CARTESIAN_POINT('',(49.2411809548975,1.71592582628907,-9.48021247803565E-16));
#361=CARTESIAN_POINT('Origin',(41.5,1.71592582628907,0.));
#362=CARTESIAN_POINT('Origin',(41.5,1.71592582628907,0.));
#363=CARTESIAN_POINT('Origin',(41.5,1.88457559956514,0.));
#364=CARTESIAN_POINT('',(50.5,2.05322537284121,-1.10218211923262E-15));
#365=CARTESIAN_POINT('Origin',(41.5,2.05322537284121,0.));
#366=CARTESIAN_POINT('',(49.8705904774488,1.88457559956514,-1.02510168351809E-15));
#367=CARTESIAN_POINT('Origin',(41.5,2.5266126864206,0.));
#368=CARTESIAN_POINT('',(50.5,3.,-1.10218211923262E-15));
#369=CARTESIAN_POINT('Origin',(41.5,3.,0.));
#370=CARTESIAN_POINT('',(50.5,2.5266126864206,-1.10218211923262E-15));
#371=CARTESIAN_POINT('Origin',(37.5,-0.8754088137593,0.));
#372=CARTESIAN_POINT('',(36.35,-0.4000000000003,-1.40834381901946E-16));
#373=CARTESIAN_POINT('',(37.5,-0.4000000000003,1.15));
#374=CARTESIAN_POINT('Origin',(37.5,-0.4000000000003,0.));
#375=CARTESIAN_POINT('',(37.5,-1.50000000000015,2.24999999999985));
#376=CARTESIAN_POINT('',(37.5,-0.8754088137593,1.625408813759));
#377=CARTESIAN_POINT('Origin',(37.5,-1.5,0.));
#378=CARTESIAN_POINT('Origin',(37.5,-0.4000000000003,0.));
#379=CARTESIAN_POINT('Origin',(41.5,-1.5,0.));
#380=CARTESIAN_POINT('',(45.5,-1.50000000000015,2.24999999999985));
#381=CARTESIAN_POINT('Origin',(45.5,-1.5,0.));
#382=CARTESIAN_POINT('Origin',(41.5,3.,0.));
#383=CARTESIAN_POINT('',(44.35,3.,1.40834381901946E-16));
#384=CARTESIAN_POINT('Origin',(45.5,3.,0.));
#385=CARTESIAN_POINT('',(36.35,3.,1.40834381901946E-16));
#386=CARTESIAN_POINT('Origin',(37.5,3.,0.));
#387=CARTESIAN_POINT('Origin',(45.5,-0.8754088137593,0.));
#388=CARTESIAN_POINT('',(44.35,-0.4000000000003,-1.40834381901946E-16));
#389=CARTESIAN_POINT('',(45.5,-0.4000000000003,1.15));
#390=CARTESIAN_POINT('Origin',(45.5,-0.4000000000003,0.));
#391=CARTESIAN_POINT('',(45.5,-0.8754088137593,1.625408813759));
#392=CARTESIAN_POINT('Origin',(45.5,-0.4000000000003,0.));
#393=CARTESIAN_POINT('Origin',(45.5,-1.5,0.));
#394=CARTESIAN_POINT('',(44.35,-1.5,-1.40834381901946E-16));
#395=CARTESIAN_POINT('Origin',(37.5,-1.5,0.));
#396=CARTESIAN_POINT('',(36.35,-1.5,-1.40834381901946E-16));
#397=UNCERTAINTY_MEASURE_WITH_UNIT(LENGTH_MEASURE(0.01),#401,
'DISTANCE_ACCURACY_VALUE',
'Maximum model space distance between geometric entities at asserted c
onnectivities');
#398=UNCERTAINTY_MEASURE_WITH_UNIT(LENGTH_MEASURE(0.01),#401,
'DISTANCE_ACCURACY_VALUE',
'Maximum model space distance between geometric entities at asserted c
onnectivities');
#399=(
GEOMETRIC_REPRESENTATION_CONTEXT(3)
GLOBAL_UNCERTAINTY_ASSIGNED_CONTEXT((#397))
GLOBAL_UNIT_ASSIGNED_CONTEXT((#401,#403,#404))
REPRESENTATION_CONTEXT('','3D')
);
#400=(
GEOMETRIC_REPRESENTATION_CONTEXT(3)
GLOBAL_UNCERTAINTY_ASSIGNED_CONTEXT((#398))
GLOBAL_UNIT_ASSIGNED_CONTEXT((#401,#403,#404))
REPRESENTATION_CONTEXT('','3D')
);
#401=(
LENGTH_UNIT()
NAMED_UNIT(*)
SI_UNIT(.MILLI.,.METRE.)
);
#402=(
LENGTH_UNIT()
NAMED_UNIT(*)
SI_UNIT(.CENTI.,.METRE.)
);
#403=(
NAMED_UNIT(*)
PLANE_ANGLE_UNIT()
SI_UNIT($,.RADIAN.)
);
#404=(
NAMED_UNIT(*)
SI_UNIT($,.STERADIAN.)
SOLID_ANGLE_UNIT()
);
#405=SHAPE_DEFINITION_REPRESENTATION(#406,#407);
#406=PRODUCT_DEFINITION_SHAPE('',$,#409);
#407=SHAPE_REPRESENTATION('',(#233),#399);
#408=PRODUCT_DEFINITION_CONTEXT('part definition',#413,'design');
#409=PRODUCT_DEFINITION(
'\X2\30104FDD5BC63011\X0\A02-01-0029\X2\76AE5E268F6E\X0\-20230321-\X2\6797671D8F89\X0\',
'\X2\30104FDD5BC63011\X0\A02-01-0029\X2\76AE5E268F6E\X0\-20230321-\X2\6797671D8F89\X0\',
#410,#408);
#410=PRODUCT_DEFINITION_FORMATION('25LAST_VERSION',$,#415);
#411=PRODUCT_RELATED_PRODUCT_CATEGORY(
'\X2\30104FDD5BC63011\X0\A02-01-0029\X2\76AE5E268F6E\X0\-20230321-\X2\6797671D8F89\X0\',
'\X2\30104FDD5BC63011\X0\A02-01-0029\X2\76AE5E268F6E\X0\-20230321-\X2\6797671D8F89\X0\',
(#415));
#412=APPLICATION_PROTOCOL_DEFINITION('international standard',
'automotive_design',2009,#413);
#413=APPLICATION_CONTEXT(
'Core Data for Automotive Mechanical Design Process');
#414=PRODUCT_CONTEXT('part definition',#413,'mechanical');
#415=PRODUCT('\X2\30104FDD5BC63011\X0\A02-01-0029\X2\76AE5E268F6E\X0\-
20230321-\X2\6797671D8F89\X0\',
'\X2\30104FDD5BC63011\X0\A02-01-0029\X2\76AE5E268F6E\X0\-20230321-\X2\6797671D8F89\X0\',
$,(#414));
#416=PRESENTATION_STYLE_ASSIGNMENT((#418));
#417=PRESENTATION_STYLE_ASSIGNMENT((#419));
#418=SURFACE_STYLE_USAGE(.BOTH.,#424);
#419=SURFACE_STYLE_USAGE(.BOTH.,#425);
#420=SURFACE_STYLE_RENDERING_WITH_PROPERTIES($,#432,(#422));
#421=SURFACE_STYLE_RENDERING_WITH_PROPERTIES($,#433,(#423));
#422=SURFACE_STYLE_TRANSPARENT(0.);
#423=SURFACE_STYLE_TRANSPARENT(0.);
#424=SURFACE_SIDE_STYLE('',(#426,#420));
#425=SURFACE_SIDE_STYLE('',(#427,#421));
#426=SURFACE_STYLE_FILL_AREA(#428);
#427=SURFACE_STYLE_FILL_AREA(#429);
#428=FILL_AREA_STYLE('',(#430));
#429=FILL_AREA_STYLE('',(#431));
#430=FILL_AREA_STYLE_COLOUR('',#432);
#431=FILL_AREA_STYLE_COLOUR('',#433);
#432=COLOUR_RGB('',0.749019607843137,0.749019607843137,0.749019607843137);
#433=COLOUR_RGB('',1.,0.,0.);
ENDSEC;
END-ISO-10303-21;
